Go Back   Zebra Forums > Non-chat forums > Tabs
Click to log in with Facebook

Reply
 
Thread Tools Display Modes
  #1  
Old 02-11-2005, 08:07 PM
rushtrader's Avatar
rushtrader rushtrader is offline
Administrator
 
Join Date: Jul 2002
Location: Noo Yawk
Posts: 1,395
Who's Behind The Door

Randy's own transcription:

Who's Behind The Door

Simple Tab and Lyrics


Tuning G-G-D-G-B-D

D-|------------12---------12---|------------12---------12---|------------12---------12---|
B-|--------------==-=-------===|=====-=-------==-=-------===|===-----------==-=-------===|
G-|--0--12---------12----------|--0--12---------12----------|--0--12---------12----------|
D-|---------0----------0-------|---------0----------0-------|---------0----------0-------|
G-|---------0----------0-------|---------0----------0-------|---------0----------0-------|
G-|---------0----------0-------|---------0----------0-------|---------0----------0-------|




D-|------------12---------12---|------------12--12--12---|--12--10--10--9---|
B=|===-----------==-=-------===|===----------0---0---0---|---0---0---0--0---|
G-|--0--12---------12----------|--0--12---------12--12---|--12---9---9--7---|
D-|---------0----------0-------|---------0-------0---0---|---0---0---0--0---|
G-|---------0----------0-------|---------0-------0---0---|---0---0---0--0---|
G-|---------0----------0-------|---------0-------0---0---|---0---0---0--0---|




D-|--9--7--7--5---|--4--0--0--0---|---------------------------|------------------------------|
B-|--0--0--0--0---|--0--5--3--1---|--------1--------5---------|--7--------8---------10-------|
G-|--7--5--5--4---|--2--0--0--0---|---------------------------|------------------------------|
D-|--0--0--0--0---|--0--5--4--2---|---------------------------|------------------------------|
G-|--0--0--0--0---|--0--0--0--0---|--0--2-----2--5-----5--7---|-----7--9-----9--11------11---|
G-|--0--0--0--0---|--0--0--0--0---|---------------------------|------------------------------|




D-|------------12---------12---|------------12---------12---|------------12-12--12---|
B-|--------------==-=-------===|===-----------==-=-------===|===-----------p-0---0---|
G-|--0--12---------12----------|--0--12---------12----------|--0--12--------12--12---|
D-|---------0----------0-------|---------0----------0-------|---------0------0---0---|
G-|---------0----------0-------|---------0----------0-------|---------0------0---0---|
G-|---------0----------0-------|---------0----------0-------|---------0------0---0---|




D-|--12--10--10--9---|--9--7--7--5---|--4--0--0--0---|---------------------------|
B-|---0---0---0--0---|--0--0--0--0---|--0--5--3--1---|--------1--------5---------|
G-|--12---9---9--7---|--7--5--5--4---|--2--0--0--0---|---------------------------|
D-|---0---0---0--0---|--0--0--0--0---|--0--5--4--2---|---------------------------|
G-|---0---0---0--0---|--0--0--0--0---|--0--0--0--0---|--0--2-----2--5-----5--7---|
G-|---0---0---0--0---|--0--0--0--0---|--0--0--0--0---|---------------------------|




D-|------------------------------|------------12---------12---|------------12---------12--|
B-|--7--------8---------10-------|---==-=-------==-=-------===|===-----------==-=---------|
G-|------------------------------|--0--12---------12----------|--0--12---------12---------|
D-|------------------------------|---------0----------0-------|---------0----------0------|
G-|-----7--9-----9--11------11---|---------0----------0-------|---------0----------0------|
G-|------------------------------|---------0----------0-------|---------0----------0------|




D-|--0--0--0---|--0--0--0---|--0--0---0---|--0--0--0---|---0---0---|---0---0---|
B-|--0--1--5---|--3--7--5---|--8--7--10---|--8--7--8---|--10--10---|--10--10---|
G-|--0--0--0---|--0--0--0---|--0--0---0---|--0--0--0---|---0---0---|---0---0---|
D-|--0--2--5---|--4--7--5---|--9--7--12---|--9--7--9---|--10--10---|--10--10---|
G-|--0--2--5---|--4--7--5---|--9--7--11---|--9--7--9---|--10--10---|--10--10---|
G-|--0--0--0---|--0--0--0---|--0--0---0---|--0--0--0---|---0---0---|---0---0---|




D-|--0--0---|--0--0---|-----9-----7-----9---------|-----9-----9-----9-----9---|
B-|--8--8---|--8--8---|--8-----8-----8--------8---|--------7------------------|
G-|--0--0---|--0--0---|--0-----------------0------|--0-----------9-----7------|
D-|--8--8---|--8--8---|--0-----------------0------|--0------------------------|
G-|--8--8---|--8--8---|--0-----------------0------|--0------------------------|
G-|--0--0---|--0--0---|--0-----------------0------|--0------------------------|




D-|-----0--------0--------0---|--------0------------|--4--4--4---|--4--4----------4----|
B-|---------------------------|---------------------|--0--0--0---|--0--0----------0----|
G-|--5-----5--4-----4--2------|--2--0-----0--0--0---|--0--0--0---|--0--0----------0----|
D-|--0--------0--------0------|-----0--------4--2---|--4--4--4---|--4--4----------4----|
G-|--0--------0--------0------|-----0--------0------|--0--0--0---|--0--0----------0----|
G-|--0--------0--------0------|-----0--------0------|--0--0--0---|--0--0----------0----|
We sailed a-



D-|--2----2--2---|--2--2---5-------7-----|--4---------4----------4---|--4-----4-----------4----|
B-|--0----0--0---|--0--0---0-------0-----|--0---------0----------0---|--0-----0-----------0----|
G-|--0----0--0---|--0--0---0-------0-----|--0---------0----------0---|--0-----0-----------0----|
D-|--2----2--2---|--2--2---5-------7-----|--4---------4----------4---|--4-----4-----------4----|
G-|--0----0--0---|--0--0---0-------0-----|--0---------0----------0---|--0-----0-----------0----|
G-|--0----0--0---|--0--0---0-------0-----|--0---------0----------0---|--0-----0-----------0----|
way We walked two thousand miles and then we slipped a-



D-|--2----2--2---|--2--2--5--7---|--4--4--4---|--4--4-----------4----|--2-----2--2---|
B-|--0----0--0---|--0--0--0--0---|--0--0--0---|--0--0-----------0----|--0-----0--0---|
G-|--0----0--0---|--0--0--0--0---|--0--0--0---|--0--0-----------0----|--0-----0--0---|
D-|--2----2--2---|--2--2--5--7---|--4--4--4---|--4--4-----------4----|--2-----2--2---|
G-|--0----0--0---|--0--0--0--0---|--0--0--0---|--0--0-----------0----|--0-----0--0---|
G-|--0----0--0---|--0--0--0--0---|--0--0--0---|--0--0-----------0----|--0-----0--0---|
way We looked so hard



D-|--2--2----5-------7-----|--4--------4----------4---|--4-----4----------4----|
B-|--0--0----0-------0-----|--0--------0----------0---|--0-----0----------0----|
G-|--0--0----0-------0-----|--0--------0----------0---|--0-----0----------0----|
D-|--2--2----5-------7-----|--4--------4----------4---|--4-----4----------4----|
G-|--0--0----0-------0-----|--0--------0----------0---|--0-----0----------0----|
G-|--0--0----0-------0-----|--0--------0----------0---|--0-----0----------0----|
But could- 'nt seem to find just what the world is



D-|--2----2--2---|--2--2----2----0----|--0-----0---|--0--0--0--0---|--4--4------|
B-|--0----0--0---|--0--0----0----0----|--5-----5---|--6--5--6--5---|--4--4------|
G-|--0----0--0---|--0--0----0----0----|--0-----0---|--0--0--0--0---|--4--4------|
D-|--2----2--2---|--2--2----2----0----|--5-----5---|--5--5--5--5---|--4--4------|
G-|--0----0--0---|--0--0----0----0----|--5-----5---|--5--5--5--5---|--4--4------|
G-|--0----0--0---|--0--0----0----0----|--0-----0---|--0--0--0--0---|--4--4------|
for But now we know just



D-|--4-----4----4------4-------|-------0-----0-----0------|-----0-----0-----0------|
B-|--5-----4----5------4-------|-------8-----7-----8------|-----7-----5-----7------|
G-|--4-----4----4------4-------|-------0-----0-----0------|-----0-----0-----0------|
D-|--4-----4----4------4-------|--9----9--9--9--9--9--9---|--7--7--7--7--7--7--7---|
G-|--4-----4----4------4-------|--9----9--9--9--9--9--9---|--7--7--7--7--7--7--7---|
G-|--4-----4----4------4-------|--0----0--0--0--0--0--0---|--0--0--0--0--0--0--0---|
what the jour- ney's for



D-|-----0-----0-----0------|-----0-----0-----0------|
B-|-----5-----3-----5------|-----3-----2-----3------|
G-|-----0-----0-----0------|-----0-----0-----0------|
D-|--5--5--5--5--5--5--5---|--4--4--4--4--4--4--4---|
G-|--5--5--5--5--5--5--5---|--4--4--4--4--4--4--4---|
G-|--0--0--0--0--0--0--0---|--0--0--0--0--0--0--0---|



D-|-0--0--0--0---|--2------0----0---0---0----0-------|
B-|-0--0--0--0---|--0------0----2---0---2----0-------|
G-|-0--0--0--0---|--0------0----0---0---0----0-------|
D-|-2--2--2--2---|--2------2----2---2---2----2-------|
G-|-2--2--2--2---|--2------2----2---2---2----2-------|
G-|-0--0--0--0---|--0------0----0---0---0----0-------|
Look- ing out to the stars




D-|--0--0--0--0---|--2------0---0----0-----0----0-----|--0--0--0--0---|--2--0--0-0--0--0---|
B-|--0--0--0--0---|--0------0---2----0-----2----0-----|--0--0--0--0---|--2--0--2-0--2--0---|
G-|--0--0--0--0---|--0------0---0----0-----0----0-----|--0--0--0--0---|--0--0--2-0--2--0---|
D-|--2--2--2--2---|--2------2---2----2-----2----0-----|--0--0--0--0---|--0--0--0-0--0--0---|
G-|--2--2--2--2---|--2------2---2----2-----2----0-----|--0--0--0--0---|--0--0--0-0--0--0---|
G-|--0--0--0--0---|--0------0---0\---0-----0----0-----|--0--0--0--0---|--0--0€”-0-0--0--0---|
Think a- bout what you are



D-|--0--0--0--0---|--2--0--0-0--0--0---|--0--0--0--0---|--2-----0---0----0------0---0-----|
B-|--0--0--0--0---|--2--0--2-0--2--0---|--0--0--0--0---|--0-----0---2----0------2---0-----|
G-|--0--0--0--0---|--0--0--2-0--2--0---|--0--0--0--0---|--0-----0---0----0------0---0-----|
D-|--0--0--0--0---|--0--0--0-0--0--0---|--2--2--2--2---|--2-----2---2----2------2---2-----|
G-|--0--0--0--0---|--0--0--0-0--0--0---|--2--2--2--2---|--2-----2---2----2------2---2-----|
G-|--0--0--0--0---|--0--0--0\0--0--0---|--0--0--0--0---|--0-----0---0----0------0---0-----|
What do they think of you



D-|--0--0--0--0---|--2---0----0----0---0------0-----|--0--0--0--0---|--2--0--0-0--0--0---|
B-|--0--0--0--0---|--0---0----2----0---2------0-----|--0--0--0--0---|--2--0--2-0--2--0---|
G-|--0--0--0--0---|--0---0----0----0---0------0-----|--0--0--0--0---|--0--0--2-0--2--0---|
D-|--2--2--2--2---|--2---2----2----2---2------0-----|--0--0--0--0---|--0--0--0-0--0--0---|
G-|--2--2--2--2---|--2---2----2----2---2------0-----|--0--0--0--0---|--0--0--0-0--0--0---|
G-|--0--0--0--0---|--0---0----0----0---0------0-----|--0--0--0--0---|--0--0€”-0-0--0--0---|
A- ni- mals in their zoo



D-|--0--0--0--0---|--2--0--0-0--0--0---|--0--0--0--0---|--2-----0------0---0----0----0------|
B-|--0--0--0--0---|--2--0--2-0--2--0---|--0--0--0--0---|--0-----0------2---0----2----0------|
G-|--0--0--0--0---|--0--0--2-0--2--0---|--0--0--0--0---|--0-----0------0---0----0----0------|
D-|--0--0--0--0---|--0--0--0-0--0--0---|--2--2--2--2---|--2-----2------2---2----2----2------|
G-|--0--0--0--0---|--0--0--0-0--0--0---|--2--2--2--2---|--2-----2------2---2----2----2------|
G-|--0--0--0--0---|--0--0--0\0--0--0---|--0--0--0--0---|--0-----0------0---0----0----0------|
They have- n't got the time



D-|--0--0--0--0---|--2------0------0---0---0------0-------|--0--0--0--0---|
B-|--0--0--0--0---|--0------0------2---0---2------0-------|--0--0--0--0---|
G-|--0--0--0--0---|--0------0------0---0---0------0-------|--0--0--0--0---|
D-|--2--2--2--2---|--2------2------2---2---2------0-------|--0--0--0--0---|
G-|--2--2--2--2---|--2------2------2---2---2------0-------|--0--0--0--0---|
G-|--0--0--0--0---|--0------0------0---0---0------0-------|--0--0--0--0---|
Land- ing's not on their minds



D-|--2--0--0-0--0--0---|--0--0--0--0---|--2--0--0-0--0--0---|--0--0--0--0--8--0--0---|
B-|--2--0--2-0--2--0---|--0--0--0--0---|--2--0--2-0--2--0---|--6--8--6--6--6--6--6---|
G-|--0--0--2-0--2--0---|--0--0--0--0---|--0--0--2-0--2--0---|--7--7--7--7--7--7--7---|
D-|--0--0--0-0--0--0---|--0--0--0--0---|--0--0--0-0--0--0---|--8--8--8--8--8--8--8---|
G-|--0--0--0-0--0--0---|--0--0--0--0---|--0--0--0-0--0--0---|--0--0--0--0--0--0--0---|
G-|--0--0--0\0--0--0---|--0--0--0--0---|--0--0--0\0--0--0---|--0--0--0--0--0--0--0---|




D-|--0----0---0-----8--0-----0--0----0-------|---0---0---0---0--10---0------0---|
B-|--8----6---6-----6--6-----6--8----6-------|---8--10---8---8---8---8------8---|
G-|--7----7---7-----7--7-----7--7----7-------|---9---9---9---9---9---9------9---|
D-|--8----8---8-----8--8-----8--8----8-------|--10--10--10--10--10--10-----10---|
G-|--0----0---0-----0--0-----0--0----0-------|---0---0---0---0---0---0------0---|
G-|--0----0---0-----0--0-----0--0----0-------|---0---0---0---0---0---0------0---|
How do they have the nerve We're





D-|---0---0----0----10---0---0---0-----0------|-----9-----7-----9---------|
B-|--10---8----8-----8---8---8--10-----8------|--8-----8-----8--------8---|
G-|---9---9----9-----9---9---9---9-----9------|--0-----------------0------|
D-|--10--10---10----10--10--10--10----10------|--0-----------------0------|
G-|---0---0----0-----0---0---0---0-----0------|--0-----------------0------|
G-|---0---0----0-----0---0---0---0-----0------|--0-----------------0------|
A- ni- mals in pre- serve



D-|-----9-----9-----9-----9---|-----0--------0--------0---|--------0------------|
B-|--------7------------------|---------------------------|---------------------|
G-|--0-----------9-----7------|--5-----5--4-----4--2------|--2--0-----0--0--0---|
D-|--0------------------------|--0--------0--------0------|-----0--------4--2---|
G-|--0------------------------|--0--------0--------0------|-----0--------0------|
G-|--0------------------------|--0--------0--------0------|-----0--------0------|




D-|--4--4--4---|--4--4-----------4----|--2----2--2---|--2--2--------5----7----|
B-|--0--0--0---|--0--0-----------0----|--0----0--0---|--0--0--------0----0----|
G-|--0--0--0---|--0--0-----------0----|--0----0--0---|--0--0--------0----0----|
D-|--4--4--4---|--4--4-----------4----|--2----2--2---|--2--2--------5----7----|
G-|--0--0--0---|--0--0-----------0----|--0----0--0---|--0--0--------0----0----|
G-|--0--0--0---|--0--0-----------0----|--0----0--0---|--0--0--------0----0----|
They watch us all They're on- ly



D-|--4-------4-----4------|--4---4-----------4-----|--2-----2--2---|--2--2--5--7---|
B-|--0-------0-----0------|--0---0-----------0-----|--0-----0--0---|--0--0--0--0---|
G-|--0-------0-----0------|--0---0-----------0-----|--0-----0--0---|--0--0--0--0---|
D-|--4-------4-----4------|--4---4-----------4-----|--2-----2--2---|--2--2--5--7---|
G-|--0-------0-----0------|--0---0-----------0-----|--0-----0--0---|--0--0--0--0---|
G-|--0-------0-----0------|--0---0-----------0-----|--0-----0--0---|--0--0--0--0---|
making sure that we don't trip and fall



D-|--4--4--4---|--4----4----------4----|--2-----2--2---|--2--2----5-----7-------|
B-|--0--0--0---|--0----0----------0----|--0-----0--0---|--0--0----0-----0-------|
G-|--0--0--0---|--0----0----------0----|--0-----0--0---|--0--0----0-----0-------|
D-|--4--4--4---|--4----4----------4----|--2-----2--2---|--2--2----5-----7-------|
G-|--0--0--0---|--0----0----------0----|--0-----0--0---|--0--0----0-----0-------|
G-|--0--0--0---|--0----0----------0----|--0-----0--0---|--0--0----0-----0-------|
Now they look so hard but they can't



D-|--4--------4----4---------|--4-----4---------4------|--2----2--2---|--2--2------2-----0-----|
B-|--0--------0----0---------|--0-----0---------0------|--0----0--0---|--0--0------0-----0-----|
G-|--0--------0----0---------|--0-----0---------0------|--0----0--0---|--0--0------0-----0-----|
D-|--4--------4----4---------|--4-----4---------4------|--2----2--2---|--2--2------2-----0-----|
G-|--0--------0----0---------|--0-----0---------0------|--0----0--0---|--0--0------0-----0-----|
G-|--0--------0----0---------|--0-----0---------0------|--0----0--0---|--0--0------0-----0-----|
tell us why they're here and just what for Cause they don't



D-|--0-----0---|--0--0--0--0---|--4--4-----|--4---4------4---4-----|--------0-----0-----0------|
B-|--5-----5---|--6--5--6--5---|--4--4-----|--5---4------5---4-----|--------8-----7-----8------|
G-|--0-----0---|--0--0--0--0---|--4--4-----|--4---4------4---4-----|--------0-----0-----0------|
D-|--5-----5---|--5--5--5--5---|--4--4-----|--4---4------4---4-----|--9-----9--9--9--9--9--9---|
G-|--5-----5---|--5--5--5--5---|--4--4-----|--4---4------4---4-----|--9-----9--9--9--9--9--9---|
G-|--0-----0---|--0--0--0--0---|--4--4-----|--4---4------4---4-----|--0-----0--0--0--0--0--0---|
know who o- pened up the door



D-|-----0-----0-----0------|-----0-----0-----0------|-----0-----0-----0------|
B-|-----7-----5-----7------|-----5-----3-----5------|-----3-----2-----3------|
G-|-----0-----0-----0------|-----0-----0-----0------|-----0-----0-----0------|
D-|--7--7--7--7--7--7--7---|--5--5--5--5--5--5--5---|--4--4--4--4--4--4--4---|
G-|--7--7--7--7--7--7--7---|--5--5--5--5--5--5--5---|--4--4--4--4--4--4--4---|
G-|--0--0--0--0--0--0--0---|--0--0--0--0--0--0--0---|--0--0--0--0--0--0--0---|




D-|--0--0--0--0---|--2----0----0--0-----0----0-------|--0--0--0--0---|
B-|--0--0--0--0---|--0----0----2--0-----2----0-------|--0--0--0--0---|
G-|--0--0--0--0---|--0----0----0--0-----0----0-------|--0--0--0--0---|
D-|--2--2--2--2---|--2----2----2--2-----2----2-------|--2--2--2--2---|
G-|--2--2--2--2---|--2----2----2--2-----2----2-------|--2--2--2--2---|
G-|--0--0--0--0---|--0----0----0-0-----0----0--------|--0--0--0--0---|
How can we find out more?


D-|--2----0-----0---0-----0-----0-------|
B-|--0----0-----2---0-----2-----0-------|
G-|--0----0-----0---0-----0-----0-------|
D-|--2----2-----2---2-----2-----0-------|
G-|--2----2-----2---2-----2-----0-------|
G-|--0----0-----0---0-----0-----0-------|
Who owns the key- less door?




D-|--0--0--0--0---|--2--0--0-0--0--0---|--0--0--0--0---|--2--0--0-0--0--0---|
B-|--0--0--0--0---|--2--0--2-0--2--0---|--0--0--0--0---|--2--0--2-0--2--0---|
G-|--0--0--0--0---|--0--0--2-0--2--0---|--0--0--0--0---|--0--0--2-0--2--0---|
D-|--0--0--0--0---|--0--0--0-0--0--0---|--0--0--0--0---|--0--0--0-0--0--0---|
G-|--0--0--0--0---|--0--0--0-0--0--0---|--0--0--0--0---|--0--0--0-0--0--0---|
G-|--0--0--0--0---|--0--0--0\0--0--0---|--0--0--0--0---|--0--0--0\0--0--0---|




D-|--0--0--0--0---|--2------0-----0---0-----0----0------|--0--0--0--0---|
B-|--0--0--0--0---|--0------0-----2---0-----2----0------|--0--0--0--0---|
G-|--0--0--0--0---|--0------0-----0---0-----0----0------|--0--0--0--0---|
D-|--2--2--2--2---|--2------2-----2---2-----2----2------|--2--2--2--2---|
G-|--2--2--2--2---|--2------2-----2---2-----2----2------|--2--2--2--2---|
G-|--0--0--0--0---|--0------0-----0---0-----0----0------|--0--0--0--0---|
Where does the cir- cle end?


D-|--2----0----0---0----0--------0-----|
B-|--0----0----2---0----2--------0-----|
G-|--0----0----0---0----0--------0-----|
D-|--2----2----2---2----2--------0-----|
G-|--2----2----2---2----2--------0-----|
G-|--0----0----0\--0----0--------0-----|

Who are the un- watched men?



D-|--0--0--0--0---|--2--0--0-0--0--0---|--0--0--0--0---|--2--0--0-0--0--0---|
B-|--0--0--0--0---|--2--0--2-0--2--0---|--0--0--0--0---|--2--0--2-0--2--0---|
G-|--0--0--0--0---|--0--0--2-0--2--0---|--0--0--0--0---|--0--0--2-0--2--0---|
D-|--0--0--0--0---|--0--0--0-0--0--0---|--0--0--0--0---|--0--0--0-0--0--0---|
G-|--0--0--0--0---|--0--0--0-0--0--0---|--0--0--0--0---|--0--0--0-0--0--0---|
G-|--0--0--0--0---|--0--0--0\0--0--0---|--0--0--0--0---|--0--0--0\0--0--0---|




D-|--0--0--0--0---|--2------0---0--0---0-----0-------|
B-|--0--0--0--0---|--0------0---2--0---2-----0-------|
G-|--0--0--0--0---|--0------0---0--0---0-----0-------|
D-|--2--2--2--2---|--2------2---2--2---2-----2-------|
G-|--2--2--2--2---|--2------2---2--2---2-----2-------|
G-|--0--0--0--0---|--0------0---0--0---0-----0-------|
Where do we go from here?


D-|--0--0--0--0---|--2------0---0--0---0-----0-------|
B-|--0--0--0--0---|--0------0---2--0---2-----0-------|
G-|--0--0--0--0---|--0------0---0--0---0-----0-------|
D-|--2--2--2--2---|--2------2---2--2---2-----2-------|
G-|--2--2--2--2---|--2------2---2--2---2-----2-------|
G-|--0--0--0--0---|--0------0---0--0---0-----0-------|
Faith is a fa- ding fear



D-|--0--0--0--0---|--2--0--0-0--0--0---|--0--0--0--0---|--2--0--0-0--0--0---|
B-|--0--0--0--0---|--2--0--2-0--2--0---|--0--0--0--0---|--2--0--2-0--2--0---|
G-|--0--0--0--0---|--0--0--2-0--2--0---|--0--0--0--0---|--0--0--2-0--2--0---|
D-|--0--0--0--0---|--0--0--0-0--0--0---|--0--0--0--0---|--0--0--0-0--0--0---|
G-|--0--0--0--0---|--0--0--0-0--0--0---|--0--0--0--0---|--0--0--0-0--0--0---|
G-|--0--0--0--0---|--0--0€”0-0--0--0----|--0--0--0--0---|--0€”-0-€”0-0--0--0---|




D-|--0--0--0--0---|--2------0---0--0---0-----0-------|
B-|--0--0--0--0---|--0------0---2--0---2-----0-------|
G-|--0--0--0--0---|--0------0---0--0---0-----0-------|
D-|--2--2--2--2---|--2------2---2--2---2-----2-------|
G-|--2--2--2--2---|--2------2---2--2---2-----2-------|
G-|--0--0--0--0---|--0------0---0--0---0-----0-------|
Life is a wait-ing room

D-|--0--0--0--0---|--2------0-----0-----0----0-----0-------|
B-|--0--0--0--0---|--0------0-----2-----0----2-----0-------|
G-|--0--0--0--0---|--0------0-----0-----0----0-----0-------|
D-|--2--2--2--2---|--2------2-----2-----2----2-----2-------|
G-|--2--2--2--2---|--2------2-----2-----2----2-----2-------|
G-|--0--0--0--0---|--0------0-----0-----0----0-----0-------|
Hope they don't call me soon



D-|--0--0--0--0---|--2--0--0-0--0--0---|--0--0--0--0---|--2--0--0-0--0--0---|
B-|--0--0--0--0---|--2--0--2-0--2--0---|--0--0--0--0---|--2--0--2-0--2--0---|
G-|--0--0--0--0---|--0--0--2-0--2--0---|--0--0--0--0---|--0--0--2-0--2--0---|
D-|--0--0--0--0---|--0--0--0-0--0--0---|--0--0--0--0---|--0--0--0-0--0--0---|
G-|--0--0--0--0---|--0--0--0-0--0--0---|--0--0--0--0---|--0--0--0-0--0--0---|
G-|--0--0--0--0---|--0--0--0\0--0--0---|--0--0--0--0---|--0--0--0\0--0--0---|




D-|--0--0----0-----0-----8--0---0-----|--0------0---0------8--0----0-----0--0---|
B-|--6--8----6-----6-----6--6---6-----|--8------6---6------6--6----6-----8--6---|
G-|--7--7----7-----7-----7--7---7-----|--7------7---7------7--7----7-----7--7---|
D-|--8--8----8-----8-----8--8---8-----|--8------8---8------8--8----8-----8--8---|
G-|--0--0----0-----0-----0--0---0-----|--0------0---0------0--0----0-----0--0---|
G-|--0--0----0-----0-----0--0---0-----|--0------0---0------0--0----0-----0--0---|
How much more do you real- ly think you know



D-|---0---0-----0---0-------------10---0-----0---|---0------0---0--10----0-----0---0---0----|
B-|---8--10-----8---8--------------8---8-----8---|--10------8---8---8----8-----8--10---8----|
G-|---9---9-----9---9--------------9---9-----9---|---9------9---9---9----9-----9---9---9----|
D-|--10--10----10--10-------------10--10----10---|--10-----10--10--10---10----10--10--10----|
G-|---0---0-----0---0--------------0---0-----0---|---0------0---0---0----0-----0---0---0----|
G-|---0---0-----0---0--------------0---0-----0---|---0------0---0---0----0-----0---0---0----|
than a flower (does) a- bout who's be- hind the



D-|--0-----0--3---|--2--2--5---|--3--3--7---|--5--5------------|--0--0--3---|
B-|--0-----0--3---|--2--2--5---|--3--3--6---|--5--5------------|--0--0--3---|
G-|--0-----0--3---|--2--2--5---|--3--3--7---|--5--5------------|--0--0--3---|
D-|--0-----0--0---|--0--0--0---|--0--0--0---|--0--0------------|--0--0--0---|
G-|--0-----0--0---|--0--0--0---|--0--0--0---|--0--0--3--2--0---|--0--0--0---|
G-|--0-----0--0---|--0--0--0---|--0--0--0---|--0--0--3--2--0---|--0--0--0---|
door



D-|--2--2--5---|--3--3--7---|--5--5--------------------------------------|--0------0--3---|
B-|--2--2--5---|--3--3--6---|--5--5--------------------------------------|--0------0--3---|
G-|--2--2--5---|--3--3--7---|--5--5--------------------------------------|--0------0--3---|
D-|--0--0--0---|--0--0--0---|--0--0--------------------------------------|--0------0--0---|
G-|--0--0--0---|--0--0--0---|--0--0--3------2--5--3----2-----3--2--0-----|--0------0--0---|
G-|--0--0--0---|--0--0--0---|--0--0--3------2--5--3----2-----3--2--0-----|--0------0--0---|
Who's be- hind the door?



D-|--2--2--5---|--3--3--7---|--5--5------------|--0--0--3---|--2--2--5---|--3--3--7---|
B-|--2--2--5---|--3--3--6---|--5--5------------|--0--0--3---|--2--2--5---|--3--3--6---|
G-|--2--2--5---|--3--3--7---|--5--5------------|--0--0--3---|--2--2--5---|--3--3--7---|
D-|--0--0--0---|--0--0--0---|--0--0------------|--0--0--0---|--0--0--0---|--0--0--0---|
G-|--0--0--0---|--0--0--0---|--0--0--3--2--0---|--0--0--0---|--0--0--0---|--0--0--0---|
G-|--0--0--0---|--0--0--0---|--0--0--3--2--0---|--0--0--0---|--0--0--0---|--0--0--0---|




D-|--5--5--------------------------------------|--0------0--3---|--2--2--5---|
B-|--5--5--------------------------------------|--0------0--3---|--2--2--5---|
G-|--5--5--------------------------------------|--0------0--3---|--2--2--5---|
D-|--0--0--------------------------------------|--0------0--0---|--0--0--0---|
G-|--0--0--3------2--5--3----2-----3--2--0-----|--0------0--0---|--0--0--0---|
G-|--0--0--3------2--5--3----2-----3--2--0-----|--0------0--0---|--0--0--0---|
Who's be- hind the door?



D-|--3--3--7---|--5--5------------|--0--0------------3------------|--2--2-------------5-------|
B-|--3--3--6---|--5--5------------|--0--0------------3------------|--2--2-------------5-------|
G-|--3--3--7---|--5--5------------|--0--0------------3------------|--2--2-------------5-------|
D-|--0--0--0---|--0--0------------|--0--0------------0------------|--0--0-------------0-------|
G-|--0--0--0---|--0--0--3--2--0---|--0--0------------0------------|--0--0-------------0-------|
G-|--0--0--0---|--0--0--3--2--0---|--0--0------------0------------|--0--0-------------0-------|
I know I'm not afraid of who's be- hind the



D-|--3-----3--7---|--5--5------------------------------|--0--0--------3---------|
B-|--3-----3--6---|--5--5------------------------------|--0--0--------3---------|
G-|--3-----3--7---|--5--5------------------------------|--0--0--------3---------|
D-|--0-----0--0---|--0--0------------------------------|--0--0--------0---------|
G-|--0-----0--0---|--0--0--3-----2--5--3--2--3--2--0---|--0--0--------0---------|
G-|--0-----0--0---|--0--0--3-----2--5--3--2--3--2--0---|--0--0--------0---------|
door yeah Animals in pre-



D-|--2------2--------5---------|--3------3----------7---|--5--5-----------------------|
B-|--2------2--------5---------|--3------3----------6---|--5--5-----------------------|
G-|--2------2--------5---------|--3------3----------7---|--5--5-----------------------|
D-|--0------0--------0---------|--0------0----------0---|--0--0-----------------------|
G-|--0------0--------0---------|--0------0----------0---|--0--0----3-----2----0-------|
G-|--0------0--------0---------|--0------0----------0---|--0--0----3-----2----0-------|
serve Animals in pre- serve But who's be- hind the door?



D-|--0--0--3---|--2--2--5---|--3--3--7---|--5--5---------------------------|
B-|--0--0--3---|--2--2--5---|--3--3--6---|--5--5---------------------------|
G-|--0--0--3---|--2--2--5---|--3--3--7---|--5--5---------------------------|
D-|--0--0--0---|--0--0--0---|--0--0--0---|--0--0---------------------------|
G-|--0--0--0---|--0--0--0---|--0--0--0---|--0--0--3--2--5--3--2--3--2--0---|
G-|--0--0--0---|--0--0--0---|--0--0--0---|--0--0--3--2--5--3--2--3--2--0---|




D-|--0--0--------3---------|--2------2--5---|--3--3--7---|--5--5------------|
B-|--0--0--------3---------|--2------2--5---|--3--3--6---|--5--5------------|
G-|--0--0--------3---------|--2------2--5---|--3--3--7---|--5--5------------|
D-|--0--0--------0---------|--0------0--0---|--0--0--0---|--0--0------------|
G-|--0--0--------0---------|--0------0--0---|--0--0--0---|--0--0--3--2--0---|
G-|--0--0--------0---------|--0------0--0---|--0--0--0---|--0--0--3--2--0---|
Animals in pre- serve



D-|--0--0-----------3------------|--2--2-----------5------------|--3--3--7----------|
B-|--0--0-----------3------------|--2--2-----------5------------|--3--3--6----------|
G-|--0--0-----------3------------|--2--2-----------5------------|--3--3--7----------|
D-|--0--0-----------0------------|--0--0-----------0------------|--0--0--0----------|
G-|--0--0-----------0------------|--0--0-----------0------------|--0--0--0----------|
G-|--0--0-----------0------------|--0--0-----------0------------|--0--0--0----------|
I know I'm not afraid I know I'm not afraid I know I'm



D-|--5-----------5---------------------------------------|--0-------0--3---|
B-|--5-----------5---------------------------------------|--0-------0--3---|
G-|--5-----------5---------------------------------------|--0-------0--3---|
D-|--0-----------0---------------------------------------|--0-------0--0---|
G-|--0-----------0---3------2--5--3----2-----3--2--0-----|--0-------0--0---|
G-|--0-----------0---3------2--5--3----2-----3--2--0-----|--0-------0--0---|
not afraid of who's be- hind the door!!



D-|--2--2--5---|--3--3--7---|--5--5------------|--0--0--3---|--2--2--5---|--3--3--7---|
B-|--2--2--5---|--3--3--6---|--5--5------------|--0--0--3---|--2--2--5---|--3--3--6---|
G-|--2--2--5---|--3--3--7---|--5--5------------|--0--0--3---|--2--2--5---|--3--3--7---|
D-|--0--0--0---|--0--0--0---|--0--0------------|--0--0--0---|--0--0--0---|--0--0--0---|
G-|--0--0--0---|--0--0--0---|--0--0--3--2--0---|--0--0--0---|--0--0--0---|--0--0--0---|
G-|--0--0--0---|--0--0--0---|--0--0--3--2--0---|--0--0--0---|--0--0--0---|--0--0--0---|




D-|--5--5------------|--0--0--3---|--2--2--5---|--3--3--7---|--5--5------------|
B-|--5--5------------|--0--0--3---|--2--2--5---|--3--3--6---|--5--5------------|
G-|--5--5------------|--0--0--3---|--2--2--5---|--3--3--7---|--5--5------------|
D-|--0--0------------|--0--0--0---|--0--0--0---|--0--0--0---|--0--0------------|
G-|--0--0--3--2--0---|--0--0--0---|--0--0--0---|--0--0--0---|--0--0--3--2--0---|
G-|--0--0--3--2--0---|--0--0--0---|--0--0--0---|--0--0--0---|--0--0--3--2--0---|




D-|--0---|--0---|
B-|--0---|--0---|
G-|--0---|--0---|
D-|--0---|--0---|
G-|--0---|--0---|
G-|--0---|--0---|
__________________
...and in the end
the love you take
is equal to the love you make
Quote:
Originally Posted by love2sing View Post
rushtrader
Reply With Quote
  #2  
Old 01-02-2009, 08:23 PM
Jeff S's Avatar
Jeff S Jeff S is offline
Registered User
 
Join Date: Sep 2007
Location: WESTCHESTER,NY
Posts: 59
Very cool!!

Thanks RANDY!I play by ear and without the proper tuneing It would take forever to learn this masterpiece.Thanks for putting the time in to tab it also.
That was a real treat to see this on here.
Thanks for posting RUSHTRADER
__________________
Reply With Quote
  #3  
Old 08-18-2009, 10:07 AM
SValienteZZZZZ's Avatar
SValienteZZZZZ SValienteZZZZZ is offline
Registered User
 
Join Date: Aug 2009
Location: United States
Posts: 1
Whos Behind The Door

Ok....Ive lost it....I know open D but I cannot get it to sound like any of the recordings Ive heard....Cant for the life of me find a tab anywhere for this song....Can someone please point me in the right direction. Thank you.
Reply With Quote
  #4  
Old 12-31-2009, 06:30 AM
lasttime lasttime is offline
Registered User
 
Join Date: Jul 2003
Location: louisiana
Posts: 11
IT's open G not open D
Reply With Quote
  #5  
Old 01-31-2011, 04:07 AM
Kunstkamera's Avatar
Kunstkamera Kunstkamera is offline
Registered User
 
Join Date: Jul 2009
Location: Ecuador
Posts: 1
Whos Behind The Door

Ive been playing 6 years but im young so im as good as someone whos been playing a bit less then that, I play alot of libs and oasis and well anything I stumble apon I try to get inspiration from everything but mostly I do my own stuff cause Im in a band and am co-songwriter.
__________________
http://kunstkamera.grusla.com
Reply With Quote
Reply

Bookmarks

Thread Tools
Display Modes

Posting Rules
You may not post new threads
You may not post replies
You may not post attachments
You may not edit your posts

BB code is On
Smilies are On
[IMG] code is On
HTML code is Off

Forum Jump


All times are GMT -4. The time now is 09:05 AM.


Design By: Miner Skinz.com
Powered by vBulletin® Version 3.8.6
Copyright ©2000 - 2014, Jelsoft Enterprises Ltd.