Go Back   Zebra Forums > Non-chat forums > Tabs
Click to log in with Facebook

Reply
 
Thread Tools Display Modes
  #1  
Old 09-16-2010, 09:49 PM
DavidSTvz DavidSTvz is offline
Registered User
 
Join Date: Jul 2010
Posts: 7
Take Your Fingers From My Hair (complete)

I've been wanting to accurately transcribe this for a good year now. I hadn't even noticed that the solo was already done by "GuitarPLYR", so now we have the whole song. Enjoy!

EDIT: Ok, I made a couple of changes. All pitches are the same, but I changed the strings that several notes are played on in 3 spots. I had the beginning of Riff C correct the first time... watching a live video, he plays pull-offs using open notes. The second measure in Riff B had the right notes, but I had them an octave high (due to the 12 string). The last two measure of Riff B were played in the wrong location... you can tell it's slides not hammer-ons, and you can see Randy doing them using the D and G string in video (although something still looks slightly off because he's doing something with his first finger that makes no sense that I can hear in standard tuning).

ALSO, no offense to GuitarPLYR, but that solo transcription has a couple of mistakes (I think). It seems to be at least 95% accurate, but I feel like there are a few missing notes, and a couple of accidental wrong notes (happens all the time in tabbing) such as the fast notes followed by the up or down slide... they should be on the 15th not 12th fret. Plus it's hard to read because the spacing does little or nothing to indicate the rhythm. I'll do some work on it and post it here later today probably.


Code:
Artist/Author: Zebra / Randy Jackson
Title: Take Your Fingers From My Hair
Album: Zebra
Transcribed by: David Trammell, September 16, 2010
Contact: david_s_trammell@yahoo.com


Notes in [brackets] are alternate notes that might sound better if you're
only playing on a 6 string, or playing without a bass guitar (or I've
seen Randy play them live in the case of the chord in Riff B, measure 4)


OPENING (RIFF A is the next 4 measures)


E|---------0---2---|-3-2-------------|-------0---------|---------HP------|
B|-----------0[3]--|-3---3---3-----0-|-------------3---|---2----020--0---|
G|-------0----[2]--|-2-----2---2-----|-----2---2-----2-|-----2-----2---0-|
D|-----2-----------|-0-----------0---|---2-------2-----|-2-----2---------|
A|---2-------------|-----------------|-0---------------|-----------------|
E|-0---------------|-----------------|-----------------|-----------------|


[COME BACK HERE AFTER FIRST CHORUS]


Play RIFF A 2x (with synth)



(RIFF B is the next 10 measures)
    
E|---------3-------|---------2-------|---------1-------|---------0---2---|
B|-----------3-----|-----------2--[0]|-----------1---0-|-----------0[3]--|
G|-------0-----0---|-------2----[2]--|-------2-----2---|-------0----[2]--|
D|-----0---------0-|-----2-------2---|-----3-----------|-----2-----------|
A|---2-------------|---4-----------3-|---3-------------|---2-------------|
E|-3---------------|-2---------------|-1---------------|-0---------------|

                                                (repeat last two measures)
E|-------3---------|-----------------|-----------------|---------0-------|
B|---------3-------|-----3/7-----7---|-----------------|---7-------2---0-|
G|-----------0---0-|---2-----7-----7-|*----4---4/6---6/|/7---7\6-----2--*|
D|-----0-------0---|-0---------0-----|*--5-----5/7-----|----------------*|
A|---2-------------|-----------------|-0-----------0---|-----------------|
E|-3---------------|-----------------|-----------------|-----------------|
                                     

Play RIFF A 2x (with lyrics)

Play RIFF B (with lyrics)

Play RIFF A 2x (with lyrics)

Play first 6 measures of RIFF B (with lyrics)



CHORUS (RIFF C is 4 measures below: intro + 1st ending + intro + 2nd ending)
       (RIFF C ALT is 4 msrs below: intro + 1st ending + intro + ALT ending)



Play first 2 measures of RIFF C (to start the Chorus)
(then play the whole RIFF C as you see it below)

      

                    /1st Ending      /2nd Ending            /ALT Ending
E|-----------------|-----------------|-----------------|  do|-----------------|
B|---------P-------|-----------------|-----------------| not|-----------------|
G|*2------20-PP--2-|---2------------*|-----------------|play|-----------------|
D|*2--------420--2-|---2----/4-5---4*|---2-4-2-5-2-----| ALT|-----------------|
A|-0-----------4-0-|---0---0-----7---|-------------3-4-| end|---0-2-0-3-0-4-0-|
E|-----------------|-----------------|-----------------| now|-----------------|


(RIFF D is the next 4 measures)

E|-----------------|-----------------|-----------------|----------------------|
B|-----------------|-----------------|-----------------|----------------------|
G|-2---------------|-----------------|-----------------|--------------------7-|
D|-2-------------2-|---------------5-|---------575\----|-------------5-5/7h9--|
A|-0-------0-----2-|-------------2-3-|--3-3/5h7------5-|---------5-7----------|
E|-----------3-2-0-|-------0-2-3-----|---------------3-|--3-3/5h7-------------|


Play RIFF C (with lyrics)

Play RIFF D (with lyrics)

Play RIFF C ALT (with lyrics)


(RIFF E is the next 4 measures)
                                                       (Same ending as Riff D)
E|-----------------|-----------------|-----------------|----------------------|
B|-----------------|-----------------|-----------------|----------------------|
G|-7---7-----------|---------------5-|-----------------|--------------------7-|
D|-7---7----[0[2]3-|---------------5-|---------------5-|-------------5-5/7h9--|
A|-5---5----[0[2]3-|-----------0-2-3-|---------3-2-0-5-|---------5-7----------|
E|------------[0]1-|---------1-------|---------------3-|--3-3/5h7-------------|


Play RIFF C ALT (with lyrics)

Play RIFF E (with lyrics)

[ON SECOND REPEAT ONLY, add following four lines]
[Play RIFF C ALT]
[Play RIFF E]
[Play RIFF C ALT]
[Play RIFF E]

Play first 3 measures of RIFF C replacing final A5 with E5 ringing out

[GO BACK TO MARKER AT BEGINNING OF SONG]




BRIDGE (PLAY THESE MEASURES 5x and end with an E minor before the solo)
                                                 P
E|-------0---------|-------3------[3]|---------32------|---------------0-|
B|---------0-------|---------3--[3]--|-----3-----3--[3]|-------3-----3---|
G|-----------0-----|-----------0---0-|---2---2-----2---|-----0-----0-----|
D|-----2-----------|-----0-------0---|-0-------------0-|---0-----0-------|
A|---2-------------|---2-------------|-----------------|-3---------------|
E|-0-----------2---|-3---------------|-----------------|-----------------|

SOLO (below)

Last edited by DavidSTvz; 09-18-2010 at 03:46 PM.
Reply With Quote
  #2  
Old 09-18-2010, 02:53 PM
DavidSTvz DavidSTvz is offline
Registered User
 
Join Date: Jul 2010
Posts: 7
Ok, here's the solo divided into bars of 4/4 time grouped into 4 measures per section so it's a bit easier to read. Plus I made corrections to various spots where notes were missing or wrong in some of the faster runs. I use an audio editing program to listen back if anyone is wondering. I keep it the same speed but isolate a small passage and play it back repeatedly so it's easier to hear what's going on.

Code:
SOLO

Artist/Author: Zebra / Randy Jackson
Title: Take Your Fingers From My Hair SOLO
Album: Zebra
Solo Corrected by: David Trammell, September 18, 2010
          Contact: david_s_trammell@yahoo.com

Originally Trascription: Scott Anderson, June 29, 2004
                Contact: sandj27@hotmail.com


                                  (2x)                                  (2x)
|-15-12-14-12----12-15-12-14-12----12-|-15-12-14-12----12-15-12-14-12----12-|
|-------------13----------------13----|-------------13----------------13----|
|-------------------------------------|-------------------------------------|
|-------------------------------------|-------------------------------------|
|-------------------------------------|-------------------------------------|
|-------------------------------------|-------------------------------------|



                                  (2x) 
|-15-12-14-12----12-15-12-14-12----12-|
|-------------13----------------13----|
|-------------------------------------|
|-------------------------------------|
|-------------------------------------|
|-------------------------------------|

|-15-14-12------------------------------|
|----------15-14-12---------------------|
|-------------------14-12-11-11h12p11---|
|------------------------------------14-|
|---------------------------------------|
|---------------------------------------|

|---------------------------------------|
|---------------------------------------|
|-11-12-14-11h12p11---11-------------11-|
|------------------14----14-12-11-12----|
|---------------------------------------|
|---------------------------------------|



       x3 x3
|-----15-15-15\------|-------------------------|
|--------------------|-------------------------|
|-12--------------11-|-12-11-12-11-12b14b12-11-|
|--------------------|-------------------------|
|--------------------|-------------------------|
|--------------------|-------------------------|

|-----------------|-----------------|
|----14-----------|----14-----------|
|----14-----12-11-|----14-----12-11-|
|-14--------------|-14--------------|
|-----------------|-----------------|
|-----------------|-----------------|



       x3 x3                                                
|-----15-15-15/------|-------------------------------------|
|--------------------|-------------------------------------|
|-12--------------11-|-14-12-11-14-12-11-14-12-11-14-12-11-|
|--------------------|-------------------------------------|
|--------------------|-------------------------------------|
|--------------------|-------------------------------------|
                          
|-----------------|------------S---|
|----14-----------|----14----P-C---|
|----14-----12-11-|----14----I-R---|
|-14--------------|-14-------C-A---|
|-----------------|----------K-P---|
|-----------------|------------E---|


   SLOW          QUICK
   BEND          BEND
|-15b17---15--|-15b17-15-14-12-------|----------------------------------------|
|-------------|----------------15-14-|-12h14p12----12-------------------------|
|-------------|----------------------|----------14----14-12-14-12-11-12-11----|
|-------------|----------------------|-------------------------------------14-|
|-------------|----------------------|----------------------------------------|
|-------------|----------------------|----------------------------------------|

|-------------------------------------|
|-------------------------------------|
|-11----------------------------------|
|----14-12-14-12-11-12-11----11-------|
|-------------------------14----14-12-|
|-------------------------------------|




|-----------------------------------|-----------------------------------------|
|-----------------------------------|------------------------------12h13p12---|
|-----------------------------------|-------------------11h12p11-----------14-|
|--------------------------9h10p9---|----------9h10p9-----------14------------|
|-14-12-10-12-10-9-9h10p9--------12-|-9h10p9---------12-----------------------|
|------------------------12---------|-------12--------------------------------|

|-14h15p14---14-15-17-14h15p15---14-------|
|---------17------------------17----17-15-|
|-----------------------------------------|
|-----------------------------------------|
|-----------------------------------------|
|-----------------------------------------|

|---------------------14h15p14---14-15-17-|
|-14h15p14---14-15-17---------17----------|
|---------16------------------------------|
|-----------------------------------------|
|-----------------------------------------|
|-----------------------------------------|


   -----3---
   |    |  |          (2x)                      (2x)
|-17b19-17-15-17b19-17-15-|-19b21-19-17-19b21-19-17-|
|-------------------------|-------------------------|
|-------------------------|-------------------------|
|-------------------------|-------------------------|
|-------------------------|-------------------------|
|-------------------------|-------------------------|


   -----3---
   |    |  |          (2x)                
|-21b22-21-19-21b22-21-19-|-22b24-22-21-19-------|-------------------|
|-------------------------|----------------22-20-|-19-20-22-20-19-20-|
|-------------------------|----------------------|-------------------|
|-------------------------|----------------------|-------------------|
|-------------------------|----------------------|-------------------|
|-------------------------|----------------------|-------------------|




|-----------------|-----------------|-----------------|-----------------|
|-22b24---22---20-|-(20)-19---17----|-----------------|-----------------|
|-----------------|--------------19-|-19b21---19---18-|-(18)-16---14-16-|
|-----------------|-----------------|-----------------|-----------------|
|-----------------|-----------------|-----------------|-----------------|
|-----------------|-----------------|-----------------|-----------------|




|-----------------|-------------------------------|
|-----------------|-------------------------------|
|-16b17---16---14-|-(14)-12---11h12p11---11-------|
|-----------------|-------------------14----14-12-|
|-----------------|-------------------------------|
|-----------------|-------------------------------|
 
|-------------------------------------------|
|-------------------------------------------|
|---------------------11h12p11--------------|
|-14-12-11-11h12p11-----------14-11h12p11---|
|------------------14--------------------14-|
|-------------------------------------------|

|------------------------14h15p14----14h15p14-17|
|------------14h15p14-17----------17------------|
|-11h12p11--------------------------------------|
|---------14------------------------------------|
|-----------------------------------------------|
|-----------------------------------------------|



                                                                      (2x)
|-20p17p14-14-14-14-20p17p14-14-14-14-20p17p14-14-14-14-20p17p14-14-14-14-|
|-------------------------------------------------------------------------|
|-------------------------------------------------------------------------|
|-------------------------------------------------------------------------|
|-------------------------------------------------------------------------|
|-------------------------------------------------------------------------|
                                                                      (2x)
|-21p17p14-14-14-14-21p17p14-14-14-14-21p17p14-14-14-14-21p17p14-14-14-14-|
|-------------------------------------------------------------------------|
|--F----------------------------------------------------------------------|
|--A----------------------------------------------------------------------|
|--D----------------------------------------------------------------------|
|--E----------------------------------------------------------------------|



                                                                      (2x)
|-20p17p14-14-14-14-20p17p14-14-14-14-20p17p14-14-14-14-20p17p14-14-14-14-|
|-------------------------------------------------------------------------|
|-------------------------------------------------------------------------|
|-------------------------------------------------------------------------|
|-------------------------------------------------------------------------|
|-------------------------------------------------------------------------|
                                                                       
|-21p17p14-14-14-14-21p17p14-14-14-14-21p17p14-14-14-14-21p17p14-14-14-14-|
|-------------------------------------------------------------------------|
|-------------------------------------------------------------------------|
|-------------------------------------------------------------------------|
|-------------------------------------------------------------------------|
|-------------------------------------------------------------------------|

|-------------------------------------|
|-------------------------------------|
|----------------------------11-12-14-|
|-------------------11-12-14----------|
|----------10-12-14-------------------|
|-10-12-14----------------------------|



       x3 x3
|-----15-15-15/------|-------------------------|-----------------|------- 
|--------------------|-------------------------|----14-----------|----14-
|-12--------------11-|-12-11-12-11-12b14b12-11-|----14-----12-11-|----14- END
|--------------------|-------------------------|-14--------------|-14---- FADE
|--------------------|-------------------------|-----------------|-------
|--------------------|-------------------------|-----------------|-------

Last edited by DavidSTvz; 09-18-2010 at 03:45 PM.
Reply With Quote
Reply

Bookmarks

Thread Tools
Display Modes

Posting Rules
You may not post new threads
You may not post replies
You may not post attachments
You may not edit your posts

BB code is On
Smilies are On
[IMG] code is On
HTML code is Off

Forum Jump


All times are GMT -4. The time now is 01:30 AM.


Design By: Miner Skinz.com
Powered by vBulletin® Version 3.8.6
Copyright ©2000 - 2014, Jelsoft Enterprises Ltd.